ISO-10303-21;
HEADER;
FILE_DESCRIPTION (( 'STEP AP203' ),
    '1' );
FILE_NAME ('End Cap SDR11_001 117 0140 0400.step',
    '2019-12-16T11:41:12',
    ( '' ),
    ( '' ),
    'SwSTEP 2.0',
    'SolidWorks 2019',
    '' );
FILE_SCHEMA (( 'CONFIG_CONTROL_DESIGN' ));
ENDSEC;

DATA;
#1 = ORIENTED_EDGE ( 'NONE', *, *, #35, .T. ) ;
#2 = PERSON_AND_ORGANIZATION ( #118, #307 ) ;
#3 = EDGE_LOOP ( 'NONE', ( #288, #201, #221, #268 ) ) ;
#4 = CALENDAR_DATE ( 2019, 16, 12 ) ;
#5 = AXIS2_PLACEMENT_3D ( 'NONE', #210, #301, #87 ) ;
#6 = VERTEX_POINT ( 'NONE', #78 ) ;
#7 = PERSON_AND_ORGANIZATION_ROLE ( 'design_supplier' ) ;
#8 = EDGE_LOOP ( 'NONE', ( #293, #171, #149 ) ) ;
#9 = DATE_AND_TIME ( #225, #240 ) ;
#10 = DIRECTION ( 'NONE',  ( -0.0000000000000000000, -1.000000000000000000, -0.0000000000000000000 ) ) ;
#11 = ADVANCED_FACE ( 'NONE', ( #179 ), #276, .T. ) ;
#12 = AXIS2_PLACEMENT_3D ( 'NONE', #296, #82, #182 ) ;
#13 = LINE ( 'NONE', #109, #229 ) ;
#14 = DIRECTION ( 'NONE',  ( -0.0000000000000000000, -1.000000000000000000, -0.0000000000000000000 ) ) ;
#15 = CARTESIAN_POINT ( 'NONE',  ( 0.0000000000000000000, 0.0000000000000000000, 0.0000000000000000000 ) ) ;
#16 = DIRECTION ( 'NONE',  ( -0.0000000000000000000, -1.000000000000000000, -0.0000000000000000000 ) ) ;
#17 = AXIS2_PLACEMENT_3D ( 'NONE', #236, #306, #94 ) ;
#18 = CARTESIAN_POINT ( 'NONE',  ( 0.0000000000000000000, -358.6771794270194391, 5.601029951724466827 ) ) ;
#19 = AXIS2_PLACEMENT_3D ( 'NONE', #15, #111, #208 ) ;
#20 = CARTESIAN_POINT ( 'NONE',  ( 0.0000000000000000000, -358.6771794270194391, 0.0000000000000000000 ) ) ;
#21 =( NAMED_UNIT ( * ) SI_UNIT ( $, .STERADIAN. ) SOLID_ANGLE_UNIT ( ) );
#22 = SECURITY_CLASSIFICATION ( '', '', #102 ) ;
#23 = EDGE_LOOP ( 'NONE', ( #194, #103 ) ) ;
#24 = MECHANICAL_CONTEXT ( 'NONE', #274, 'mechanical' ) ;
#25 = ORIENTED_EDGE ( 'NONE', *, *, #89, .T. ) ;
#26 = PERSON_AND_ORGANIZATION ( #118, #307 ) ;
#27 = ORIENTED_EDGE ( 'NONE', *, *, #121, .F. ) ;
#28 = PERSON_AND_ORGANIZATION ( #118, #307 ) ;
#29 = AXIS2_PLACEMENT_3D ( 'NONE', #190, #283, #63 ) ;
#30 = ORIENTED_EDGE ( 'NONE', *, *, #56, .F. ) ;
#31 = APPROVAL_ROLE ( '' ) ;
#32 = LINE ( 'NONE', #133, #46 ) ;
#33 = DIRECTION ( 'NONE',  ( 0.0000000000000000000, 0.0000000000000000000, -1.000000000000000000 ) ) ;
#34 = CARTESIAN_POINT ( 'NONE',  ( 0.0000000000000000000, 204.9966770563108298, 0.0000000000000000000 ) ) ;
#35 = EDGE_CURVE ( 'NONE', #96, #245, #132, .T. ) ;
#36 = DIRECTION ( 'NONE',  ( -0.0000000000000000000, -1.000000000000000000, -0.0000000000000000000 ) ) ;
#37 = DIRECTION ( 'NONE',  ( 0.0000000000000000000, 0.0000000000000000000, -1.000000000000000000 ) ) ;
#38 = LOCAL_TIME ( 14, 41, 12.00000000000000000, #269 ) ;
#39 = CARTESIAN_POINT ( 'NONE',  ( -6.323862827469028904E-14, 204.9966770563108298, 0.0000000000000000000 ) ) ;
#40 = PRODUCT ( 'End Cap SDR11_001 117 0140 0400', 'End Cap SDR11_001 117 0140 0400', '', ( #24 ) ) ;
#41 = FACE_OUTER_BOUND ( 'NONE', #74, .T. ) ;
#42 = AXIS2_PLACEMENT_3D ( 'NONE', #164, #259, #37 ) ;
#43 = ADVANCED_FACE ( 'NONE', ( #106 ), #203, .F. ) ;
#44 =( NAMED_UNIT ( * ) PLANE_ANGLE_UNIT ( ) SI_UNIT ( $, .RADIAN. ) );
#45 = EDGE_LOOP ( 'NONE', ( #291, #1, #30, #50 ) ) ;
#46 = VECTOR ( 'NONE', #228, 1000.000000000000000 ) ;
#47 = CARTESIAN_POINT ( 'NONE',  ( 0.0000000000000000000, 0.0000000000000000000, 0.0000000000000000000 ) ) ;
#48 = VERTEX_POINT ( 'NONE', #277 ) ;
#49 = CALENDAR_DATE ( 2019, 16, 12 ) ;
#50 = ORIENTED_EDGE ( 'NONE', *, *, #64, .F. ) ;
#51 = CALENDAR_DATE ( 2019, 16, 12 ) ;
#52 = ORIENTED_EDGE ( 'NONE', *, *, #35, .F. ) ;
#53 = DATE_TIME_ROLE ( 'classification_date' ) ;
#54 = CARTESIAN_POINT ( 'NONE',  ( 0.0000000000000000000, 0.0000000000000000000, 0.0000000000000000000 ) ) ;
#55 = CARTESIAN_POINT ( 'NONE',  ( 0.0000000000000000000, 0.0000000000000000000, 0.0000000000000000000 ) ) ;
#56 = EDGE_CURVE ( 'NONE', #48, #245, #146, .T. ) ;
#57 = DIRECTION ( 'NONE',  ( -0.0000000000000000000, -1.000000000000000000, -0.0000000000000000000 ) ) ;
#58 = CIRCLE ( 'NONE', #237, 200.0000000000000000 ) ;
#59 = CARTESIAN_POINT ( 'NONE',  ( 0.0000000000000000000, 179.0000000000001137, 0.0000000000000000000 ) ) ;
#60 = DIRECTION ( 'NONE',  ( 0.0000000000000000000, -1.000000000000000000, -0.0000000000000000000 ) ) ;
#61 = ADVANCED_BREP_SHAPE_REPRESENTATION ( 'End Cap SDR11_001 117 0140 0400', ( #136, #139 ), #93 ) ;
#62 = CARTESIAN_POINT ( 'NONE',  ( 0.0000000000000000000, 179.0000000000001137, 0.0000000000000000000 ) ) ;
#63 = DIRECTION ( 'NONE',  ( 0.0000000000000000000, 0.0000000000000000000, -1.000000000000000000 ) ) ;
#64 = EDGE_CURVE ( 'NONE', #243, #48, #32, .T. ) ;
#65 = APPROVAL_PERSON_ORGANIZATION ( #156, #275, #31 ) ;
#66 = CARTESIAN_POINT ( 'NONE',  ( 2.004746810204217341E-14, 0.0000000000000000000, 163.7000000000000171 ) ) ;
#67 = CIRCLE ( 'NONE', #248, 563.7016835342166132 ) ;
#68 = EDGE_CURVE ( 'NONE', #177, #241, #13, .T. ) ;
#69 =( LENGTH_UNIT ( ) NAMED_UNIT ( * ) SI_UNIT ( .MILLI., .METRE. ) );
#70 = ORIENTED_EDGE ( 'NONE', *, *, #68, .F. ) ;
#71 = ORIENTED_EDGE ( 'NONE', *, *, #143, .T. ) ;
#72 = AXIS2_PLACEMENT_3D ( 'NONE', #299, #83, #185 ) ;
#73 = APPROVAL_STATUS ( 'not_yet_approved' ) ;
#74 = EDGE_LOOP ( 'NONE', ( #124, #145, #154 ) ) ;
#75 = APPROVAL_STATUS ( 'not_yet_approved' ) ;
#76 = EDGE_LOOP ( 'NONE', ( #52, #98, #122, #247 ) ) ;
#77 = COORDINATED_UNIVERSAL_TIME_OFFSET ( 3, 0, .AHEAD. ) ;
#78 = CARTESIAN_POINT ( 'NONE',  ( -9.194034422677077600E-14, 241.2966770563108128, 0.0000000000000000000 ) ) ;
#79 = ADVANCED_FACE ( 'NONE', ( #298 ), #91, .F. ) ;
#80 = LOCAL_TIME ( 14, 41, 12.00000000000000000, #220 ) ;
#81 = UNCERTAINTY_MEASURE_WITH_UNIT (LENGTH_MEASURE( 1.000000000000000082E-05 ), #69, 'distance_accuracy_value', 'NONE');
#82 = DIRECTION ( 'NONE',  ( -0.0000000000000000000, -1.000000000000000000, -0.0000000000000000000 ) ) ;
#83 = DIRECTION ( 'NONE',  ( -0.0000000000000000000, -1.000000000000000000, -0.0000000000000000000 ) ) ;
#84 = EDGE_CURVE ( 'NONE', #241, #224, #134, .T. ) ;
#85 = AXIS2_PLACEMENT_3D ( 'NONE', #62, #140, #233 ) ;
#86 = FACE_BOUND ( 'NONE', #126, .T. ) ;
#87 = DIRECTION ( 'NONE',  ( 0.0000000000000000000, 0.0000000000000000000, 1.000000000000000000 ) ) ;
#88 = CYLINDRICAL_SURFACE ( 'NONE', #29, 163.6999999999999886 ) ;
#89 = EDGE_CURVE ( 'NONE', #196, #224, #135, .T. ) ;
#90 = DIRECTION ( 'NONE',  ( 0.0000000000000000000, 0.0000000000000000000, -1.000000000000000000 ) ) ;
#91 = TOROIDAL_SURFACE ( 'NONE', #267, -5.601029951724466827, 563.7016835342166132 ) ;
#92 = ADVANCED_FACE ( 'NONE', ( #110 ), #207, .T. ) ;
#93 =( GEOMETRIC_REPRESENTATION_CONTEXT ( 3 ) GLOBAL_UNCERTAINTY_ASSIGNED_CONTEXT ( ( #81 ) ) GLOBAL_UNIT_ASSIGNED_CONTEXT ( ( #69, #44, #21 ) ) REPRESENTATION_CONTEXT ( 'NONE', 'WORKASPACE' ) );
#94 = DIRECTION ( 'NONE',  ( -1.224646799147353207E-16, 0.0000000000000000000, -1.000000000000000000 ) ) ;
#95 = APPLICATION_PROTOCOL_DEFINITION ( 'international standard', 'config_control_design', 1994, #274 ) ;
#96 = VERTEX_POINT ( 'NONE', #279 ) ;
#97 = PERSON_AND_ORGANIZATION_ROLE ( 'design_owner' ) ;
#98 = ORIENTED_EDGE ( 'NONE', *, *, #141, .T. ) ;
#99 = CIRCLE ( 'NONE', #280, 199.9999999999999432 ) ;
#100 = DATE_AND_TIME ( #4, #80 ) ;
#101 = ORIENTED_EDGE ( 'NONE', *, *, #141, .F. ) ;
#102 = SECURITY_CLASSIFICATION_LEVEL ( 'unclassified' ) ;
#103 = ORIENTED_EDGE ( 'NONE', *, *, #130, .T. ) ;
#104 = EDGE_CURVE ( 'NONE', #196, #177, #214, .T. ) ;
#105 = APPROVAL_DATE_TIME ( #9, #275 ) ;
#106 = FACE_OUTER_BOUND ( 'NONE', #3, .T. ) ;
#107 = AXIS2_PLACEMENT_3D ( 'NONE', #54, #157, #250 ) ;
#108 = CC_DESIGN_APPROVAL ( #275, ( #22 ) ) ;
#109 = CARTESIAN_POINT ( 'NONE',  ( 2.004746810204217026E-14, 0.0000000000000000000, 163.6999999999999886 ) ) ;
#110 = FACE_OUTER_BOUND ( 'NONE', #45, .T. ) ;
#111 = DIRECTION ( 'NONE',  ( -0.0000000000000000000, -1.000000000000000000, -0.0000000000000000000 ) ) ;
#112 = TOROIDAL_SURFACE ( 'NONE', #286, -5.601029951724466827, 599.9999999999998863 ) ;
#113 = DIRECTION ( 'NONE',  ( 0.0000000000000000000, 0.0000000000000000000, -1.000000000000000000 ) ) ;
#114 = DIRECTION ( 'NONE',  ( -1.000000000000000000, 0.0000000000000000000, 0.0000000000000000000 ) ) ;
#115 = EDGE_CURVE ( 'NONE', #243, #96, #117, .T. ) ;
#116 = CARTESIAN_POINT ( 'NONE',  ( -6.859283402307823311E-16, -358.6771794270194391, -5.601029951724466827 ) ) ;
#117 = CIRCLE ( 'NONE', #290, 199.9999999999999432 ) ;
#118 = PERSON ( 'BELÝRTÝLMEMÝÞ', 'BELÝRTÝLMEMÝÞ', 'BELÝRTÝLMEMÝÞ', ('BELÝRTÝLMEMÝÞ'), ('BELÝRTÝLMEMÝÞ'), ('BELÝRTÝLMEMÝÞ') ) ;
#119 = DIRECTION ( 'NONE',  ( -0.0000000000000000000, -1.000000000000000000, -0.0000000000000000000 ) ) ;
#120 = APPROVAL_PERSON_ORGANIZATION ( #292, #212, #176 ) ;
#121 = EDGE_CURVE ( 'NONE', #224, #241, #160, .T. ) ;
#122 = ORIENTED_EDGE ( 'NONE', *, *, #64, .T. ) ;
#123 = ADVANCED_FACE ( 'NONE', ( #300, #86 ), #187, .T. ) ;
#124 = ORIENTED_EDGE ( 'NONE', *, *, #163, .F. ) ;
#125 = PERSON_AND_ORGANIZATION_ROLE ( 'creator' ) ;
#126 = EDGE_LOOP ( 'NONE', ( #27, #265 ) ) ;
#127 = AXIS2_PLACEMENT_3D ( 'NONE', #18, #114, #211 ) ;
#128 = PERSON_AND_ORGANIZATION_ROLE ( 'creator' ) ;
#129 = EDGE_LOOP ( 'NONE', ( #295, #71, #151 ) ) ;
#130 = EDGE_CURVE ( 'NONE', #245, #48, #58, .T. ) ;
#131 = COORDINATED_UNIVERSAL_TIME_OFFSET ( 3, 0, .AHEAD. ) ;
#132 = LINE ( 'NONE', #226, #239 ) ;
#133 = CARTESIAN_POINT ( 'NONE',  ( 0.0000000000000000000, 0.0000000000000000000, -199.9999999999999716 ) ) ;
#134 = CIRCLE ( 'NONE', #304, 163.7000000000000171 ) ;
#135 = LINE ( 'NONE', #230, #173 ) ;
#136 = MANIFOLD_SOLID_BREP ( 'Döndür1', #258 ) ;
#137 = DIRECTION ( 'NONE',  ( -0.0000000000000000000, -1.000000000000000000, -0.0000000000000000000 ) ) ;
#138 = DIRECTION ( 'NONE',  ( 0.0000000000000000000, 0.0000000000000000000, -1.000000000000000000 ) ) ;
#139 = AXIS2_PLACEMENT_3D ( 'NONE', #47, #148, #242 ) ;
#140 = DIRECTION ( 'NONE',  ( -0.0000000000000000000, -1.000000000000000000, -0.0000000000000000000 ) ) ;
#141 = EDGE_CURVE ( 'NONE', #96, #243, #99, .T. ) ;
#142 = CARTESIAN_POINT ( 'NONE',  ( 0.0000000000000000000, 0.0000000000000000000, -163.7000000000000171 ) ) ;
#143 = EDGE_CURVE ( 'NONE', #219, #196, #144, .T. ) ;
#144 = CIRCLE ( 'NONE', #5, 563.7016835342166132 ) ;
#145 = ORIENTED_EDGE ( 'NONE', *, *, #255, .T. ) ;
#146 = CIRCLE ( 'NONE', #191, 200.0000000000000000 ) ;
#147 = ADVANCED_FACE ( 'NONE', ( #189 ), #186, .T. ) ;
#148 = DIRECTION ( 'NONE',  ( 0.0000000000000000000, 0.0000000000000000000, 1.000000000000000000 ) ) ;
#149 = ORIENTED_EDGE ( 'NONE', *, *, #153, .T. ) ;
#150 = DATE_AND_TIME ( #49, #38 ) ;
#151 = ORIENTED_EDGE ( 'NONE', *, *, #104, .T. ) ;
#152 = DATE_AND_TIME ( #51, #297 ) ;
#153 = EDGE_CURVE ( 'NONE', #177, #196, #222, .T. ) ;
#154 = ORIENTED_EDGE ( 'NONE', *, *, #115, .F. ) ;
#155 = CIRCLE ( 'NONE', #17, 599.9999999999998863 ) ;
#156 = PERSON_AND_ORGANIZATION ( #118, #307 ) ;
#157 = DIRECTION ( 'NONE',  ( -0.0000000000000000000, -1.000000000000000000, -0.0000000000000000000 ) ) ;
#158 = DIRECTION ( 'NONE',  ( -0.0000000000000000000, -1.000000000000000000, -0.0000000000000000000 ) ) ;
#159 = DIRECTION ( 'NONE',  ( 0.0000000000000000000, 0.0000000000000000000, -1.000000000000000000 ) ) ;
#160 = CIRCLE ( 'NONE', #19, 163.7000000000000171 ) ;
#161 = DIRECTION ( 'NONE',  ( -0.0000000000000000000, -1.000000000000000000, -0.0000000000000000000 ) ) ;
#162 = DIRECTION ( 'NONE',  ( 0.0000000000000000000, 0.0000000000000000000, -1.000000000000000000 ) ) ;
#163 = EDGE_CURVE ( 'NONE', #6, #243, #264, .T. ) ;
#164 = CARTESIAN_POINT ( 'NONE',  ( 0.0000000000000000000, -358.6771794270194391, 0.0000000000000000000 ) ) ;
#165 = CC_DESIGN_APPROVAL ( #212, ( #260 ) ) ;
#166 = CARTESIAN_POINT ( 'NONE',  ( 2.004746810204217026E-14, 179.0000000000001137, 163.6999999999999602 ) ) ;
#167 = CARTESIAN_POINT ( 'NONE',  ( 0.0000000000000000000, 204.9966770563108298, -199.9999999999999432 ) ) ;
#168 = PRODUCT_DEFINITION_SHAPE ( 'NONE', 'NONE',  #184 ) ;
#169 = TOROIDAL_SURFACE ( 'NONE', #209, -5.601029951724466827, 563.7016835342166132 ) ;
#170 = ADVANCED_FACE ( 'NONE', ( #302 ), #88, .F. ) ;
#171 = ORIENTED_EDGE ( 'NONE', *, *, #238, .T. ) ;
#172 = ORIENTED_EDGE ( 'NONE', *, *, #163, .T. ) ;
#173 = VECTOR ( 'NONE', #14, 1000.000000000000000 ) ;
#174 = APPROVAL_ROLE ( '' ) ;
#175 = ORIENTED_EDGE ( 'NONE', *, *, #121, .T. ) ;
#176 = APPROVAL_ROLE ( '' ) ;
#177 = VERTEX_POINT ( 'NONE', #166 ) ;
#178 = CALENDAR_DATE ( 2019, 16, 12 ) ;
#179 = FACE_OUTER_BOUND ( 'NONE', #76, .T. ) ;
#180 = APPROVAL_PERSON_ORGANIZATION ( #289, #188, #174 ) ;
#181 = CC_DESIGN_PERSON_AND_ORGANIZATION_ASSIGNMENT ( #2, #97, ( #40 ) ) ;
#182 = DIRECTION ( 'NONE',  ( 0.0000000000000000000, 0.0000000000000000000, -1.000000000000000000 ) ) ;
#183 = CARTESIAN_POINT ( 'NONE',  ( 0.0000000000000000000, 0.0000000000000000000, 0.0000000000000000000 ) ) ;
#184 = PRODUCT_DEFINITION ( 'BÝLÝNMEYEN', '', #260, #305 ) ;
#185 = DIRECTION ( 'NONE',  ( 0.0000000000000000000, 0.0000000000000000000, -1.000000000000000000 ) ) ;
#186 = TOROIDAL_SURFACE ( 'NONE', #42, -5.601029951724466827, 599.9999999999998863 ) ;
#187 = PLANE ( 'NONE',  #197 ) ;
#188 = APPROVAL ( #73, 'BELÝRTÝLMEMÝÞ' ) ;
#189 = FACE_OUTER_BOUND ( 'NONE', #218, .T. ) ;
#190 = CARTESIAN_POINT ( 'NONE',  ( 0.0000000000000000000, 0.0000000000000000000, 0.0000000000000000000 ) ) ;
#191 = AXIS2_PLACEMENT_3D ( 'NONE', #55, #158, #252 ) ;
#192 = DIRECTION ( 'NONE',  ( 1.000000000000000000, 0.0000000000000000000, -1.224646799147353207E-16 ) ) ;
#193 = CC_DESIGN_PERSON_AND_ORGANIZATION_ASSIGNMENT ( #26, #125, ( #184 ) ) ;
#194 = ORIENTED_EDGE ( 'NONE', *, *, #56, .T. ) ;
#195 = APPLICATION_PROTOCOL_DEFINITION ( 'international standard', 'config_control_design', 1994, #287 ) ;
#196 = VERTEX_POINT ( 'NONE', #261 ) ;
#197 = AXIS2_PLACEMENT_3D ( 'NONE', #281, #60, #162 ) ;
#198 = DATE_TIME_ROLE ( 'creation_date' ) ;
#199 = ORIENTED_EDGE ( 'NONE', *, *, #104, .F. ) ;
#200 = PERSON_AND_ORGANIZATION ( #118, #307 ) ;
#201 = ORIENTED_EDGE ( 'NONE', *, *, #68, .T. ) ;
#202 = SHAPE_DEFINITION_REPRESENTATION ( #168, #61 ) ;
#203 = CYLINDRICAL_SURFACE ( 'NONE', #12, 163.6999999999999886 ) ;
#204 = LOCAL_TIME ( 14, 41, 12.00000000000000000, #77 ) ;
#205 = CC_DESIGN_DATE_AND_TIME_ASSIGNMENT ( #100, #198, ( #184 ) ) ;
#206 = DIRECTION ( 'NONE',  ( -0.0000000000000000000, -1.000000000000000000, -0.0000000000000000000 ) ) ;
#207 = CYLINDRICAL_SURFACE ( 'NONE', #72, 199.9999999999999716 ) ;
#208 = DIRECTION ( 'NONE',  ( 0.0000000000000000000, 0.0000000000000000000, -1.000000000000000000 ) ) ;
#209 = AXIS2_PLACEMENT_3D ( 'NONE', #213, #303, #90 ) ;
#210 = CARTESIAN_POINT ( 'NONE',  ( 0.0000000000000000000, -358.6771794270194391, 5.601029951724466827 ) ) ;
#211 = DIRECTION ( 'NONE',  ( 0.0000000000000000000, 0.0000000000000000000, 1.000000000000000000 ) ) ;
#212 = APPROVAL ( #75, 'BELÝRTÝLMEMÝÞ' ) ;
#213 = CARTESIAN_POINT ( 'NONE',  ( 0.0000000000000000000, -358.6771794270194391, 0.0000000000000000000 ) ) ;
#214 = CIRCLE ( 'NONE', #254, 163.6999999999999602 ) ;
#215 = CC_DESIGN_PERSON_AND_ORGANIZATION_ASSIGNMENT ( #28, #128, ( #260 ) ) ;
#216 = DIRECTION ( 'NONE',  ( 0.0000000000000000000, 0.0000000000000000000, -1.000000000000000000 ) ) ;
#217 = CC_DESIGN_APPROVAL ( #188, ( #184 ) ) ;
#218 = EDGE_LOOP ( 'NONE', ( #272, #172, #101 ) ) ;
#219 = VERTEX_POINT ( 'NONE', #39 ) ;
#220 = COORDINATED_UNIVERSAL_TIME_OFFSET ( 3, 0, .AHEAD. ) ;
#221 = ORIENTED_EDGE ( 'NONE', *, *, #84, .T. ) ;
#222 = CIRCLE ( 'NONE', #85, 163.6999999999999602 ) ;
#223 = PERSON_AND_ORGANIZATION ( #118, #307 ) ;
#224 = VERTEX_POINT ( 'NONE', #142 ) ;
#225 = CALENDAR_DATE ( 2019, 16, 12 ) ;
#226 = CARTESIAN_POINT ( 'NONE',  ( 2.449293598294706119E-14, 0.0000000000000000000, 199.9999999999999716 ) ) ;
#227 = CC_DESIGN_PERSON_AND_ORGANIZATION_ASSIGNMENT ( #223, #7, ( #260 ) ) ;
#228 = DIRECTION ( 'NONE',  ( -0.0000000000000000000, -1.000000000000000000, -0.0000000000000000000 ) ) ;
#229 = VECTOR ( 'NONE', #206, 1000.000000000000000 ) ;
#230 = CARTESIAN_POINT ( 'NONE',  ( 0.0000000000000000000, 0.0000000000000000000, -163.6999999999999886 ) ) ;
#231 = DIRECTION ( 'NONE',  ( 0.0000000000000000000, 0.0000000000000000000, -1.000000000000000000 ) ) ;
#232 = CARTESIAN_POINT ( 'NONE',  ( 0.0000000000000000000, 204.9966770563108298, 0.0000000000000000000 ) ) ;
#233 = DIRECTION ( 'NONE',  ( 0.0000000000000000000, 0.0000000000000000000, -1.000000000000000000 ) ) ;
#234 = FACE_OUTER_BOUND ( 'NONE', #8, .T. ) ;
#235 = ADVANCED_FACE ( 'NONE', ( #234 ), #169, .F. ) ;
#236 = CARTESIAN_POINT ( 'NONE',  ( -6.859283402307823311E-16, -358.6771794270194391, -5.601029951724466827 ) ) ;
#237 = AXIS2_PLACEMENT_3D ( 'NONE', #257, #36, #138 ) ;
#238 = EDGE_CURVE ( 'NONE', #219, #177, #67, .T. ) ;
#239 = VECTOR ( 'NONE', #10, 1000.000000000000000 ) ;
#240 = LOCAL_TIME ( 14, 41, 12.00000000000000000, #131 ) ;
#241 = VERTEX_POINT ( 'NONE', #66 ) ;
#242 = DIRECTION ( 'NONE',  ( 1.000000000000000000, 0.0000000000000000000, 0.0000000000000000000 ) ) ;
#243 = VERTEX_POINT ( 'NONE', #167 ) ;
#244 = APPROVAL_DATE_TIME ( #150, #188 ) ;
#245 = VERTEX_POINT ( 'NONE', #263 ) ;
#246 = APPROVAL_DATE_TIME ( #152, #212 ) ;
#247 = ORIENTED_EDGE ( 'NONE', *, *, #130, .F. ) ;
#248 = AXIS2_PLACEMENT_3D ( 'NONE', #116, #192, #285 ) ;
#249 = APPROVAL_STATUS ( 'not_yet_approved' ) ;
#250 = DIRECTION ( 'NONE',  ( 0.0000000000000000000, 0.0000000000000000000, -1.000000000000000000 ) ) ;
#251 = ADVANCED_FACE ( 'NONE', ( #41 ), #112, .T. ) ;
#252 = DIRECTION ( 'NONE',  ( 0.0000000000000000000, 0.0000000000000000000, -1.000000000000000000 ) ) ;
#253 = DIRECTION ( 'NONE',  ( -0.0000000000000000000, -1.000000000000000000, -0.0000000000000000000 ) ) ;
#254 = AXIS2_PLACEMENT_3D ( 'NONE', #59, #161, #256 ) ;
#255 = EDGE_CURVE ( 'NONE', #6, #96, #155, .T. ) ;
#256 = DIRECTION ( 'NONE',  ( 0.0000000000000000000, 0.0000000000000000000, -1.000000000000000000 ) ) ;
#257 = CARTESIAN_POINT ( 'NONE',  ( 0.0000000000000000000, 0.0000000000000000000, 0.0000000000000000000 ) ) ;
#258 = CLOSED_SHELL ( 'NONE', ( #235, #251, #92, #43, #170, #123, #11, #147, #79 ) ) ;
#259 = DIRECTION ( 'NONE',  ( -0.0000000000000000000, -1.000000000000000000, -0.0000000000000000000 ) ) ;
#260 = PRODUCT_DEFINITION_FORMATION_WITH_SPECIFIED_SOURCE ( 'HERHANGÝ', '', #40, .NOT_KNOWN. ) ;
#261 = CARTESIAN_POINT ( 'NONE',  ( 0.0000000000000000000, 179.0000000000001137, -163.6999999999999602 ) ) ;
#262 = CC_DESIGN_PERSON_AND_ORGANIZATION_ASSIGNMENT ( #200, #294, ( #22 ) ) ;
#263 = CARTESIAN_POINT ( 'NONE',  ( 2.449293598294706750E-14, 0.0000000000000000000, 200.0000000000000284 ) ) ;
#264 = CIRCLE ( 'NONE', #127, 599.9999999999998863 ) ;
#265 = ORIENTED_EDGE ( 'NONE', *, *, #84, .F. ) ;
#266 = CC_DESIGN_DATE_AND_TIME_ASSIGNMENT ( #273, #53, ( #22 ) ) ;
#267 = AXIS2_PLACEMENT_3D ( 'NONE', #278, #57, #159 ) ;
#268 = ORIENTED_EDGE ( 'NONE', *, *, #89, .F. ) ;
#269 = COORDINATED_UNIVERSAL_TIME_OFFSET ( 3, 0, .AHEAD. ) ;
#270 = EDGE_LOOP ( 'NONE', ( #70, #199, #25, #175 ) ) ;
#271 = COORDINATED_UNIVERSAL_TIME_OFFSET ( 3, 0, .AHEAD. ) ;
#272 = ORIENTED_EDGE ( 'NONE', *, *, #255, .F. ) ;
#273 = DATE_AND_TIME ( #178, #204 ) ;
#274 = APPLICATION_CONTEXT ( 'configuration controlled 3d designs of mechanical parts and assemblies' ) ;
#275 = APPROVAL ( #249, 'BELÝRTÝLMEMÝÞ' ) ;
#276 = CYLINDRICAL_SURFACE ( 'NONE', #107, 199.9999999999999716 ) ;
#277 = CARTESIAN_POINT ( 'NONE',  ( 0.0000000000000000000, 0.0000000000000000000, -200.0000000000000000 ) ) ;
#278 = CARTESIAN_POINT ( 'NONE',  ( 0.0000000000000000000, -358.6771794270194391, 0.0000000000000000000 ) ) ;
#279 = CARTESIAN_POINT ( 'NONE',  ( 2.449293598294706119E-14, 204.9966770563108298, 199.9999999999999432 ) ) ;
#280 = AXIS2_PLACEMENT_3D ( 'NONE', #232, #16, #113 ) ;
#281 = CARTESIAN_POINT ( 'NONE',  ( 163.7000000000000171, 0.0000000000000000000, 0.0000000000000000000 ) ) ;
#282 = PRODUCT_RELATED_PRODUCT_CATEGORY ( 'detail', '', ( #40 ) ) ;
#283 = DIRECTION ( 'NONE',  ( -0.0000000000000000000, -1.000000000000000000, -0.0000000000000000000 ) ) ;
#284 = CC_DESIGN_SECURITY_CLASSIFICATION ( #22, ( #260 ) ) ;
#285 = DIRECTION ( 'NONE',  ( -1.224646799147353207E-16, 0.0000000000000000000, -1.000000000000000000 ) ) ;
#286 = AXIS2_PLACEMENT_3D ( 'NONE', #20, #119, #216 ) ;
#287 = APPLICATION_CONTEXT ( 'configuration controlled 3d designs of mechanical parts and assemblies' ) ;
#288 = ORIENTED_EDGE ( 'NONE', *, *, #153, .F. ) ;
#289 = PERSON_AND_ORGANIZATION ( #118, #307 ) ;
#290 = AXIS2_PLACEMENT_3D ( 'NONE', #34, #137, #231 ) ;
#291 = ORIENTED_EDGE ( 'NONE', *, *, #115, .T. ) ;
#292 = PERSON_AND_ORGANIZATION ( #118, #307 ) ;
#293 = ORIENTED_EDGE ( 'NONE', *, *, #143, .F. ) ;
#294 = PERSON_AND_ORGANIZATION_ROLE ( 'classification_officer' ) ;
#295 = ORIENTED_EDGE ( 'NONE', *, *, #238, .F. ) ;
#296 = CARTESIAN_POINT ( 'NONE',  ( 0.0000000000000000000, 0.0000000000000000000, 0.0000000000000000000 ) ) ;
#297 = LOCAL_TIME ( 14, 41, 12.00000000000000000, #271 ) ;
#298 = FACE_OUTER_BOUND ( 'NONE', #129, .T. ) ;
#299 = CARTESIAN_POINT ( 'NONE',  ( 0.0000000000000000000, 0.0000000000000000000, 0.0000000000000000000 ) ) ;
#300 = FACE_OUTER_BOUND ( 'NONE', #23, .T. ) ;
#301 = DIRECTION ( 'NONE',  ( -1.000000000000000000, 0.0000000000000000000, 0.0000000000000000000 ) ) ;
#302 = FACE_OUTER_BOUND ( 'NONE', #270, .T. ) ;
#303 = DIRECTION ( 'NONE',  ( -0.0000000000000000000, -1.000000000000000000, -0.0000000000000000000 ) ) ;
#304 = AXIS2_PLACEMENT_3D ( 'NONE', #183, #253, #33 ) ;
#305 = DESIGN_CONTEXT ( 'detailed design', #287, 'design' ) ;
#306 = DIRECTION ( 'NONE',  ( 1.000000000000000000, 0.0000000000000000000, -1.224646799147353207E-16 ) ) ;
#307 = ORGANIZATION ( 'BELÝRTÝLMEMÝÞ', 'BELÝRTÝLMEMÝÞ', '' ) ;
ENDSEC;
END-ISO-10303-21;
